Tabs for Obosh Onubhutir Deyal by ArtCell

Posted by in Guitar Tabs/Chords

Tabs for obosh onubhutir deyal by Artcell on standard tuning.

Intro : Plucking

E  -----------------------------------------------------------|
B  --3----3-----3---3--------------3----------------3---------|
G  -----0---0-----0--------------0----0-----0----0----0-------|
D  --------------------0-h-2--0----------0-----0---------0----|
A  --2----------3---------------------------------------------|
E  -----------------------------------------------------------|

              Repeat this 4 times

Verse 1
     Tomar jonno prithibi aj niechey biday,
E  ------------------------------------------------|
B  ---3---3-----3---3-----0---0------------3-------|
G  -----0---0-----0---0-----0---0----2---2---2-----|
D  ------------------------------------------------|
A  ---2---------3---------2----------0-------------|
E  ------------------------------------------------|

     Tobu tomar tukro chayay,

E  ---------------------------------------------------------|
B  --3----3-----3---3--------------3----------------3-------|
G  -----0---0-----0--------------0----0-----0----0----0-----|
D  --------------------0-h-2--0----------0-----0---------0--|
A  --2----------3-------------------------------------------|
E  ---------------------------------------------------------|

...

     Tomar jonno prithibite ajke chutir rode,
E  -----------------------------------------------------|
B  ---1---1------2---2------3----3--------4-----4-------|
G  -----0---0------2---2-------2---2---------4-----4----|
D  -------------------------0---------------------------|
A  ---3----------0------------------------2-------------|
E  -----------------------------------------------------|

     Nijer majhey tomay khoja,
E  -----------------------------------------------|
B  ---5---5-----7---7------8---8------8---8-------|
G  -----5---5-----7---7------9---9------9---9-----|
D  -----------------------------------------------|
A  ---3---------5----------7----------7-----------|
E  -----------------------------------------------|

     Akash niley takiey thaka.
E  ---0---0-------2---2-------3-3----3-----3------|
B  -----1---1-------3---3----------3----3---------|
G  -----------------------------------------------|
D  ---------------0-------------------------------|
A  ---3-------------------------------------------|
E  ---------------------------3-------------------|

Last Verse
     Tomar jonno poth harie ojanay,
E  ------------------------------------------------|
B  ---3---3-----3---3-----0---0------------3-------|
G  -----0---0-----0---0-----0---0----2---2---2-----|
D  ------------------------------------------------|
A  ---2---------3---------2----------0-------------|
E  ------------------------------------------------|

     Tobu tomar lekha kothay,
E  ---------------------------------------------------------|
B  --3----3-----3---3--------------3----------------3-------|
G  -----0---0-----0--------------0----0-----0----0----0-----|
D  --------------------0-h-2--0----------0-----0---------0--|
A  --2----------3-------------------------------------------|
E  ---------------------------------------------------------|

     Ferey klanto amar olosh shomoy,
E  ------------------------------------------------|
B  ---3---3-----3---3-----0---0------------3-------|
G  -----0---0-----0---0-----0---0----2---2---2-----|
D  ------------------------------------------------|
A  ---2---------3---------2----------0-------------|
E  ------------------------------------------------|

     Koto smriti ondhokarmoy...
E  ---------------------------------------------------------|
B  ---3---3-----3---3-----3---3----3---3----3---3-----------|
G  -----0---0-----0---0-----0---0----0---0----0---0-----0---|
D  -----------------------------------------------------0---|
A  ---2---------3--------------------------------------2----|
E  -----------------------3--------3---------3--------------|